  0
SECTION
  2
HEADER
  9
$ACADVER
  1
AC1015
  9
$ACADMAINTVER
 70
     6
  9
$DWGCODEPAGE
  3
ANSI_1254
  9
$INSBASE
 10
0.0
 20
0.0
 30
0.0
  9
$EXTMIN
 10
0.0
 20
0.0
 30
0.0
  9
$EXTMAX
 10
279.4
 20
215.9
 30
0.0
  9
$LIMMIN
 10
0.0
 20
0.0
  9
$LIMMAX
 10
279.4
 20
215.9
  9
$ORTHOMODE
 70
     0
  9
$REGENMODE
 70
     1
  9
$FILLMODE
 70
     1
  9
$QTEXTMODE
 70
     0
  9
$MIRRTEXT
 70
     1
  9
$LTSCALE
 40
1.0
  9
$ATTMODE
 70
     1
  9
$TEXTSIZE
 40
3.5
  9
$TRACEWID
 40
1.0
  9
$TEXTSTYLE
  7
Standard
  9
$CLAYER
  8
0
  9
$CELTYPE
  6
ByLayer
  9
$CECOLOR
 62
   256
  9
$CELTSCALE
 40
1.0
  9
$DISPSILH
 70
     0
  9
$DIMSCALE
 40
1.0
  9
$DIMASZ
 40
3.5
  9
$DIMEXO
 40
1.0
  9
$DIMDLI
 40
3.75
  9
$DIMRND
 40
0.0
  9
$DIMDLE
 40
0.0
  9
$DIMEXE
 40
1.0
  9
$DIMTP
 40
0.0
  9
$DIMTM
 40
0.0
  9
$DIMTXT
 40
3.5
  9
$DIMCEN
 40
2.5
  9
$DIMTSZ
 40
0.0
  9
$DIMTOL
 70
     0
  9
$DIMLIM
 70
     0
  9
$DIMTIH
 70
     1
  9
$DIMTOH
 70
     1
  9
$DIMSE1
 70
     0
  9
$DIMSE2
 70
     0
  9
$DIMTAD
 70
     1
  9
$DIMZIN
 70
     0
  9
$DIMBLK
  1

  9
$DIMASO
 70
     1
  9
$DIMSHO
 70
     1
  9
$DIMPOST
  1

  9
$DIMAPOST
  1

  9
$DIMALT
 70
     0
  9
$DIMALTD
 70
     3
  9
$DIMALTF
 40
0.0393700787
  9
$DIMLFAC
 40
1.0
  9
$DIMTOFL
 70
     1
  9
$DIMTVP
 40
0.0
  9
$DIMTIX
 70
     0
  9
$DIMSOXD
 70
     0
  9
$DIMSAH
 70
     0
  9
$DIMBLK1
  1

  9
$DIMBLK2
  1

  9
$DIMSTYLE
  2
ISO-25
  9
$DIMCLRD
 70
     0
  9
$DIMCLRE
 70
     0
  9
$DIMCLRT
 70
     0
  9
$DIMTFAC
 40
1.0
  9
$DIMGAP
 40
1.524
  9
$DIMJUST
 70
     0
  9
$DIMSD1
 70
     0
  9
$DIMSD2
 70
     0
  9
$DIMTOLJ
 70
     0
  9
$DIMTZIN
 70
     0
  9
$DIMALTZ
 70
     0
  9
$DIMALTTZ
 70
     0
  9
$DIMUPT
 70
     0
  9
$DIMDEC
 70
     2
  9
$DIMTDEC
 70
     2
  9
$DIMALTU
 70
     2
  9
$DIMALTTD
 70
     3
  9
$DIMTXSTY
  7
Standard
  9
$DIMAUNIT
 70
     0
  9
$DIMADEC
 70
     2
  9
$DIMALTRND
 40
0.0
  9
$DIMAZIN
 70
     0
  9
$DIMDSEP
 70
    44
  9
$DIMATFIT
 70
     3
  9
$DIMFRAC
 70
     0
  9
$DIMLDRBLK
  1

  9
$DIMLUNIT
 70
     2
  9
$DIMLWD
 70
    -2
  9
$DIMLWE
 70
    -2
  9
$DIMTMOVE
 70
     0
  9
$LUNITS
 70
     2
  9
$LUPREC
 70
     2
  9
$SKETCHINC
 40
1.0
  9
$FILLETRAD
 40
10.0
  9
$AUNITS
 70
     0
  9
$AUPREC
 70
     2
  9
$MENU
  1
.
  9
$ELEVATION
 40
0.0
  9
$PELEVATION
 40
0.0
  9
$THICKNESS
 40
0.0
  9
$LIMCHECK
 70
     0
  9
$CHAMFERA
 40
0.0
  9
$CHAMFERB
 40
0.0
  9
$CHAMFERC
 40
0.0
  9
$CHAMFERD
 40
0.0
  9
$SKPOLY
 70
     0
  9
$TDCREATE
 40
2458985.7055725
  9
$TDUCREATE
 40
2458985.5805725
  9
$TDUPDATE
 40
2458985.705572812
  9
$TDUUPDATE
 40
2458985.580572812
  9
$TDINDWG
 40
0.0000000116
  9
$TDUSRTIMER
 40
0.0000000116
  9
$USRTIMER
 70
     1
  9
$ANGBASE
 50
0.0
  9
$ANGDIR
 70
     0
  9
$PDMODE
 70
     0
  9
$PDSIZE
 40
-1.0
  9
$PLINEWID
 40
0.0
  9
$SPLFRAME
 70
     0
  9
$SPLINETYPE
 70
     6
  9
$SPLINESEGS
 70
     8
  9
$HANDSEED
  5
EF
  9
$SURFTAB1
 70
     6
  9
$SURFTAB2
 70
     6
  9
$SURFTYPE
 70
     6
  9
$SURFU
 70
     6
  9
$SURFV
 70
     6
  9
$UCSBASE
  2

  9
$UCSNAME
  2

  9
$UCSORG
 10
0.0
 20
0.0
 30
0.0
  9
$UCSXDIR
 10
1.0
 20
0.0
 30
0.0
  9
$UCSYDIR
 10
0.0
 20
1.0
 30
0.0
  9
$UCSORTHOREF
  2

  9
$UCSORTHOVIEW
 70
     0
  9
$UCSORGTOP
 10
0.0
 20
0.0
 30
0.0
  9
$UCSORGBOTTOM
 10
0.0
 20
0.0
 30
0.0
  9
$UCSORGLEFT
 10
0.0
 20
0.0
 30
0.0
  9
$UCSORGRIGHT
 10
0.0
 20
0.0
 30
0.0
  9
$UCSORGFRONT
 10
0.0
 20
0.0
 30
0.0
  9
$UCSORGBACK
 10
0.0
 20
0.0
 30
0.0
  9
$PUCSBASE
  2

  9
$PUCSNAME
  2

  9
$PUCSORG
 10
0.0
 20
0.0
 30
0.0
  9
$PUCSXDIR
 10
1.0
 20
0.0
 30
0.0
  9
$PUCSYDIR
 10
0.0
 20
1.0
 30
0.0
  9
$PUCSORTHOREF
  2

  9
$PUCSORTHOVIEW
 70
     0
  9
$PUCSORGTOP
 10
0.0
 20
0.0
 30
0.0
  9
$PUCSORGBOTTOM
 10
0.0
 20
0.0
 30
0.0
  9
$PUCSORGLEFT
 10
0.0
 20
0.0
 30
0.0
  9
$PUCSORGRIGHT
 10
0.0
 20
0.0
 30
0.0
  9
$PUCSORGFRONT
 10
0.0
 20
0.0
 30
0.0
  9
$PUCSORGBACK
 10
0.0
 20
0.0
 30
0.0
  9
$USERI1
 70
     0
  9
$USERI2
 70
     0
  9
$USERI3
 70
     0
  9
$USERI4
 70
     0
  9
$USERI5
 70
     0
  9
$USERR1
 40
0.0
  9
$USERR2
 40
0.0
  9
$USERR3
 40
0.0
  9
$USERR4
 40
0.0
  9
$USERR5
 40
0.0
  9
$WORLDVIEW
 70
     1
  9
$SHADEDGE
 70
     3
  9
$SHADEDIF
 70
    70
  9
$TILEMODE
 70
     1
  9
$MAXACTVP
 70
    64
  9
$PINSBASE
 10
0.0
 20
0.0
 30
0.0
  9
$PLIMCHECK
 70
     0
  9
$PEXTMIN
 10
1.0000000000E+20
 20
1.0000000000E+20
 30
1.0000000000E+20
  9
$PEXTMAX
 10
-1.0000000000E+20
 20
-1.0000000000E+20
 30
-1.0000000000E+20
  9
$PLIMMIN
 10
0.0
 20
0.0
  9
$PLIMMAX
 10
420.0
 20
297.0
  9
$UNITMODE
 70
     0
  9
$VISRETAIN
 70
     1
  9
$PLINEGEN
 70
     0
  9
$PSLTSCALE
 70
     1
  9
$TREEDEPTH
 70
  3020
  9
$CMLSTYLE
  2
Standard
  9
$CMLJUST
 70
     0
  9
$CMLSCALE
 40
20.0
  9
$PROXYGRAPHICS
 70
     1
  9
$MEASUREMENT
 70
     1
  9
$CELWEIGHT
370
    -1
  9
$ENDCAPS
280
     0
  9
$JOINSTYLE
280
     0
  9
$LWDISPLAY
290
     1
  9
$INSUNITS
 70
     4
  9
$HYPERLINKBASE
  1

  9
$STYLESHEET
  1

  9
$XEDIT
290
     1
  9
$CEPSNTYPE
380
     0
  9
$PSTYLEMODE
290
     1
  9
$FINGERPRINTGUID
  2
{2869d6e2-b27e-4e8a-900b-32debc3a8fe6}
  9
$VERSIONGUID
  2
{FAEB1C32-E019-11D5-929B-00C0DF256EC4}
  9
$EXTNAMES
290
     1
  9
$PSVPSCALE
 40
0.0
  9
$OLESTARTUP
290
     0
  0
ENDSEC
  0
SECTION
  2
CLASSES
  0
CLASS
  1
ACDBDICTIONARYWDFLT
  2
AcDbDictionaryWithDefault
  3
ObjectDBX Classes
 90
        0
280
     0
281
     0
  0
CLASS
  1
VISUALSTYLE
  2
AcDbVisualStyle
  3
ObjectDBX Classes
 90
     4095
280
     0
281
     0
  0
CLASS
  1
MATERIAL
  2
AcDbMaterial
  3
ObjectDBX Classes
 90
     1153
280
     0
281
     0
  0
CLASS
  1
SCALE
  2
AcDbScale
  3
ObjectDBX Classes
 90
     1153
280
     0
281
     0
  0
CLASS
  1
TABLESTYLE
  2
AcDbTableStyle
  3
ObjectDBX Classes
 90
     4095
280
     0
281
     0
  0
CLASS
  1
MLEADERSTYLE
  2
AcDbMLeaderStyle
  3
ACDB_MLEADERSTYLE_CLASS
 90
     4095
280
     0
281
     0
  0
CLASS
  1
SUN
  2
AcDbSun
  3
SCENEOE
 90
     1153
280
     0
281
     0
  0
CLASS
  1
ACDBPLACEHOLDER
  2
AcDbPlaceHolder
  3
ObjectDBX Classes
 90
        0
280
     0
281
     0
  0
CLASS
  1
LAYOUT
  2
AcDbLayout
  3
ObjectDBX Classes
 90
        0
280
     0
281
     0
  0
ENDSEC
  0
SECTION
  2
TABLES
  0
TABLE
  2
VPORT
  5
8
330
0
100
AcDbSymbolTable
 70
     1
  0
VPORT
  5
29
330
8
100
AcDbSymbolTableRecord
100
AcDbViewportTableRecord
  2
*Active
 70
     0
 10
0.0
 20
0.0
 11
1.0
 21
1.0
 12
139.7
 22
107.95
 13
0.0
 23
0.0
 14
10.0
 24
10.0
 15
10.0
 25
10.0
 16
0.0
 26
0.0
 36
1.0
 17
0.0
 27
0.0
 37
0.0
 40
215.9
 41
1.2941176471
 42
50.0
 43
0.0
 44
0.0
 50
0.0
 51
0.0
 71
     0
 72
  2000
 73
     1
 74
     3
 75
     0
 76
     0
 77
     0
 78
     0
281
     0
 65
     1
110
0.0
120
0.0
130
0.0
111
1.0
121
0.0
131
0.0
112
0.0
122
1.0
132
0.0
 79
     0
146
0.0
  0
ENDTAB
  0
TABLE
  2
LTYPE
  5
5
330
0
100
AcDbSymbolTable
 70
     6
  0
LTYPE
  5
14
330
5
100
AcDbSymbolTableRecord
100
AcDbLinetypeTableRecord
  2
ByBlock
 70
     0
  3

 72
    65
 73
     0
 40
0.0
  0
LTYPE
  5
15
330
5
100
AcDbSymbolTableRecord
100
AcDbLinetypeTableRecord
  2
ByLayer
 70
     0
  3

 72
    65
 73
     0
 40
0.0
  0
LTYPE
  5
16
330
5
100
AcDbSymbolTableRecord
100
AcDbLinetypeTableRecord
  2
Continuous
 70
     0
  3
Solid line
 72
    65
 73
     0
 40
0.0
  0
LTYPE
  5
6E
330
5
100
AcDbSymbolTableRecord
100
AcDbLinetypeTableRecord
  2
HIDDEN
 70
     0
  3
Hidden __ __ __ __ __ __ __ __ __ __ __ __ __ __
 72
    65
 73
     2
 40
1.905
 49
1.27
 74
     0
 49
-0.635
 74
     0
  0
LTYPE
  5
6F
330
5
100
AcDbSymbolTableRecord
100
AcDbLinetypeTableRecord
  2
PHANTOM
 70
     0
  3
Phantom ______  __  __  ______  __  __  ______
 72
    65
 73
     6
 40
12.7
 49
6.35
 74
     0
 49
-1.27
 74
     0
 49
1.27
 74
     0
 49
-1.27
 74
     0
 49
1.27
 74
     0
 49
-1.27
 74
     0
  0
LTYPE
  5
70
330
5
100
AcDbSymbolTableRecord
100
AcDbLinetypeTableRecord
  2
CENTER
 70
     0
  3
Center ____ _ ____ _ ____ _ ____ _ ____ _ ____
 72
    65
 73
     4
 40
10.16
 49
6.35
 74
     0
 49
-1.27
 74
     0
 49
1.27
 74
     0
 49
-1.27
 74
     0
  0
LTYPE
  5
71
330
5
100
AcDbSymbolTableRecord
100
AcDbLinetypeTableRecord
  2
CENTERX2
 70
     0
  3
Center (2x) ________  __  ________  __  _____
 72
    65
 73
     4
 40
20.32
 49
12.7
 74
     0
 49
-2.54
 74
     0
 49
2.54
 74
     0
 49
-2.54
 74
     0
  0
LTYPE
  5
72
330
5
100
AcDbSymbolTableRecord
100
AcDbLinetypeTableRecord
  2
DOT2
 70
     0
  3
Dot (.5x) ........................................
 72
    65
 73
     2
 40
0.635
 49
0.0
 74
     0
 49
-0.635
 74
     0
  0
ENDTAB
  0
TABLE
  2
LAYER
  5
2
330
0
100
AcDbSymbolTable
 70
    17
  0
LAYER
  5
10
330
2
100
AcDbSymbolTableRecord
100
AcDbLayerTableRecord
  2
0
 70
     0
 62
     7
  6
Continuous
370
    -3
390
F
  0
LAYER
  5
73
330
2
100
AcDbSymbolTableRecord
100
AcDbLayerTableRecord
  2
FORMAT
 70
     0
 62
     7
  6
Continuous
370
    -3
390
F
  0
LAYER
  5
74
330
2
100
AcDbSymbolTableRecord
100
AcDbLayerTableRecord
  2
YARDIMCI_GEOMETRI
 70
     0
 62
    -6
  6
Continuous
290
     0
370
    -3
390
F
  0
LAYER
  5
75
330
2
100
AcDbSymbolTableRecord
100
AcDbLayerTableRecord
  2
SAYFA_CERCEVESI
 70
     0
 62
     7
  6
Continuous
370
    25
390
F
  0
LAYER
  5
76
330
2
100
AcDbSymbolTableRecord
100
AcDbLayerTableRecord
  2
ANTET
 70
     0
 62
     7
  6
Continuous
370
    -3
390
F
  0
LAYER
  5
77
330
2
100
AcDbSymbolTableRecord
100
AcDbLayerTableRecord
  2
OLCU
 70
     0
 62
   150
  6
Continuous
370
    -3
390
F
  0
LAYER
  5
78
330
2
100
AcDbSymbolTableRecord
100
AcDbLayerTableRecord
  2
METIN
 70
     0
 62
    96
  6
Continuous
370
    -3
390
F
  0
LAYER
  5
79
330
2
100
AcDbSymbolTableRecord
100
AcDbLayerTableRecord
  2
BALON
 70
     0
 62
     5
  6
Continuous
370
    -3
390
F
  0
LAYER
  5
7A
330
2
100
AcDbSymbolTableRecord
100
AcDbLayerTableRecord
  2
VURGU
 70
     0
 62
     7
  6
Continuous
370
    -3
390
F
  0
LAYER
  5
7B
330
2
100
AcDbSymbolTableRecord
100
AcDbLayerTableRecord
  2
SILIK
 70
     0
 62
     7
  6
Continuous
370
    -3
390
F
  0
LAYER
  5
7C
330
2
100
AcDbSymbolTableRecord
100
AcDbLayerTableRecord
  2
MODEL
 70
     0
 62
     7
  6
Continuous
370
    -3
390
F
  0
LAYER
  5
7D
330
2
100
AcDbSymbolTableRecord
100
AcDbLayerTableRecord
  2
DETAYLANDıRMA
 70
     0
 62
   190
  6
Continuous
370
    -3
390
F
  0
LAYER
  5
7E
330
2
100
AcDbSymbolTableRecord
100
AcDbLayerTableRecord
  2
TOLERANS
 70
     0
 62
   230
  6
Continuous
370
    -3
390
F
  0
LAYER
  5
7F
330
2
100
AcDbSymbolTableRecord
100
AcDbLayerTableRecord
  2
MERKEZ_CIZGILERI
 70
     0
 62
    30
  6
Continuous
370
    -3
390
F
  0
LAYER
  5
80
330
2
100
AcDbSymbolTableRecord
100
AcDbLayerTableRecord
  2
KESIT-DETAY_CIZGILERI
 70
     0
 62
     7
  6
Continuous
370
    -3
390
F
  0
LAYER
  5
81
330
2
100
AcDbSymbolTableRecord
100
AcDbLayerTableRecord
  2
\U+041E\U+0421\U+0415\U+0412\U+042B\U+0415
 70
     0
 62
     7
  6
Continuous
370
    -3
390
F
  0
LAYER
  5
82
330
2
100
AcDbSymbolTableRecord
100
AcDbLayerTableRecord
  2
\U+0412\U+041E\U+0414\U+042F\U+041D\U+042B\U+0415_\U+0417\U+041D\U+0410\U+041A\U+0418
 70
     0
 62
    11
  6
Continuous
370
    -3
390
F
  0
ENDTAB
  0
TABLE
  2
STYLE
  5
3
330
0
100
AcDbSymbolTable
 70
     1
  0
STYLE
  5
11
330
3
100
AcDbSymbolTableRecord
100
AcDbTextStyleTableRecord
  2
Standard
 70
     0
 40
0.0
 41
1.0
 50
0.0
 71
     0
 42
3.5
  3
txt
  4

  0
ENDTAB
  0
TABLE
  2
VIEW
  5
6
330
0
100
AcDbSymbolTable
 70
     0
  0
ENDTAB
  0
TABLE
  2
UCS
  5
7
330
0
100
AcDbSymbolTable
 70
     0
  0
ENDTAB
  0
TABLE
  2
APPID
  5
9
330
0
100
AcDbSymbolTable
 70
     1
  0
APPID
  5
12
330
9
100
AcDbSymbolTableRecord
100
AcDbRegAppTableRecord
  2
ACAD
 70
     0
  0
ENDTAB
  0
TABLE
  2
DIMSTYLE
  5
A
330
0
100
AcDbSymbolTable
 70
     1
100
AcDbDimStyleTable
  0
DIMSTYLE
105
27
330
A
100
AcDbSymbolTableRecord
100
AcDbDimStyleTableRecord
  2
ISO-25
 70
     0
 41
2.5
 42
0.625
 43
3.75
 44
1.25
 73
     0
 74
     0
 77
     1
 78
     8
140
2.5
141
2.5
143
0.0393700787
147
0.625
171
     3
172
     1
178
     0
271
     2
272
     2
274
     3
278
    44
283
     0
284
     8
340
11
  0
ENDTAB
  0
TABLE
  2
BLOCK_RECORD
  5
1
330
0
100
AcDbSymbolTable
 70
     2
  0
BLOCK_RECORD
  5
1F
330
1
100
AcDbSymbolTableRecord
100
AcDbBlockTableRecord
  2
*Model_Space
340
22
  0
BLOCK_RECORD
  5
1B
330
1
100
AcDbSymbolTableRecord
100
AcDbBlockTableRecord
  2
*Paper_Space
340
1E
  0
BLOCK_RECORD
  5
23
330
1
100
AcDbSymbolTableRecord
100
AcDbBlockTableRecord
  2
*Paper_Space0
340
26
  0
BLOCK_RECORD
  5
88
330
1
100
AcDbSymbolTableRecord
100
AcDbBlockTableRecord
  2
SW_CENTERMARKSYMBOL_0
340
0
102
{BLKREFS
331
93
102
}
  0
ENDTAB
  0
ENDSEC
  0
SECTION
  2
BLOCKS
  0
BLOCK
  5
20
330
1F
100
AcDbEntity
  8
0
100
AcDbBlockBegin
  2
*Model_Space
 70
     0
 10
0.0
 20
0.0
 30
0.0
  3
*Model_Space
  1

  0
ENDBLK
  5
21
330
1F
100
AcDbEntity
  8
0
100
AcDbBlockEnd
  0
BLOCK
  5
1C
330
1B
100
AcDbEntity
 67
     1
  8
0
100
AcDbBlockBegin
  2
*Paper_Space
 70
     0
 10
0.0
 20
0.0
 30
0.0
  3
*Paper_Space
  1

  0
ENDBLK
  5
1D
330
1B
100
AcDbEntity
 67
     1
  8
0
100
AcDbBlockEnd
  0
BLOCK
  5
24
330
23
100
AcDbEntity
  8
0
100
AcDbBlockBegin
  2
*Paper_Space0
 70
     0
 10
0.0
 20
0.0
 30
0.0
  3
*Paper_Space0
  1

  0
ENDBLK
  5
25
330
23
100
AcDbEntity
  8
0
100
AcDbBlockEnd
  0
BLOCK
  5
89
330
88
100
AcDbEntity
  8
0
100
AcDbBlockBegin
  2
SW_CENTERMARKSYMBOL_0
 70
     0
 10
0.0
 20
0.0
 30
0.0
  3
SW_CENTERMARKSYMBOL_0
  1

  0
LINE
  5
8B
330
88
100
AcDbEntity
  8
FORMAT
 62
     0
100
AcDbLine
 10
0.0
 20
0.0
 30
0.0
 11
0.0
 21
2.5
 31
0.0
  0
LINE
  5
8C
330
88
100
AcDbEntity
  8
FORMAT
 62
     0
100
AcDbLine
 10
0.0
 20
0.0
 30
0.0
 11
-2.5
 21
0.0
 31
0.0
  0
LINE
  5
8D
330
88
100
AcDbEntity
  8
FORMAT
 62
     0
100
AcDbLine
 10
0.0
 20
0.0
 30
0.0
 11
0.0
 21
-2.5
 31
0.0
  0
LINE
  5
8E
330
88
100
AcDbEntity
  8
FORMAT
 62
     0
100
AcDbLine
 10
0.0
 20
0.0
 30
0.0
 11
2.5
 21
0.0
 31
0.0
  0
LINE
  5
8F
330
88
100
AcDbEntity
  8
FORMAT
 62
     0
100
AcDbLine
 10
0.0
 20
5.0
 30
0.0
 11
0.0
 21
72.5
 31
0.0
  0
LINE
  5
90
330
88
100
AcDbEntity
  8
FORMAT
 62
     0
100
AcDbLine
 10
-5.0
 20
0.0
 30
0.0
 11
-72.5
 21
0.0
 31
0.0
  0
LINE
  5
91
330
88
100
AcDbEntity
  8
FORMAT
 62
     0
100
AcDbLine
 10
0.0
 20
-5.0
 30
0.0
 11
0.0
 21
-72.5
 31
0.0
  0
LINE
  5
92
330
88
100
AcDbEntity
  8
FORMAT
 62
     0
100
AcDbLine
 10
5.0
 20
0.0
 30
0.0
 11
72.5
 21
0.0
 31
0.0
  0
ENDBLK
  5
8A
330
88
100
AcDbEntity
  8
0
100
AcDbBlockEnd
  0
ENDSEC
  0
SECTION
  2
ENTITIES
  0
CIRCLE
  5
83
330
1F
100
AcDbEntity
  8
0
  6
Continuous
 62
     7
370
    25
100
AcDbCircle
 10
136.0804557792
 20
118.8813202377
 30
0.0
 40
70.00000000000001
  0
CIRCLE
  5
84
330
1F
100
AcDbEntity
  8
0
  6
Continuous
 62
     7
370
    25
100
AcDbCircle
 10
136.0804557792
 20
118.8813202377
 30
0.0
 40
61.7
  0
CIRCLE
  5
85
330
1F
100
AcDbEntity
  8
0
  6
Continuous
 62
     7
370
    25
100
AcDbCircle
 10
136.0804557792
 20
118.8813202377
 30
0.0
 40
61.54584265546814
  0
CIRCLE
  5
86
330
1F
100
AcDbEntity
  8
0
  6
Continuous
 62
     7
370
    25
100
AcDbCircle
 10
136.0804557792
 20
118.8813202377
 30
0.0
 40
48.55415734453192
  0
CIRCLE
  5
87
330
1F
100
AcDbEntity
  8
0
  6
Continuous
 62
     7
370
    25
100
AcDbCircle
 10
136.0804557792
 20
118.8813202377
 30
0.0
 40
48.40000000000002
  0
INSERT
  5
93
330
1F
100
AcDbEntity
  8
FORMAT
 62
     7
100
AcDbBlockReference
  2
SW_CENTERMARKSYMBOL_0
 10
136.0804557792
 20
118.8813202377
 30
0.0
  0
ARC
  5
94
330
1F
100
AcDbEntity
  8
0
  6
Continuous
 62
     7
370
    25
100
AcDbCircle
 10
-202.5134180307
 20
186.8813202377
 30
0.0
 40
2.0
100
AcDbArc
 50
75.7354877019
 51
90.0
  0
ARC
  5
95
330
1F
100
AcDbEntity
  8
0
  6
Continuous
 62
     7
370
    25
100
AcDbCircle
 10
-202.5134180307
 20
50.8813202377
 30
0.0
 40
2.000000000000007
100
AcDbArc
 50
270.0
 51
284.2645122981
  0
LINE
  5
96
330
1F
100
AcDbEntity
  8
0
  6
Continuous
 62
     7
370
    25
100
AcDbLine
 10
-202.5134180035
 20
188.8813205357
 30
0.0
 11
-294.263158768
 21
188.8813205357
 31
0.0
  0
LINE
  5
97
330
1F
100
AcDbEntity
  8
0
  6
Continuous
 62
     7
370
    25
100
AcDbLine
 10
-294.263158768
 20
48.8813199397
 30
0.0
 11
-202.5134180035
 21
48.8813199397
 31
0.0
  0
LINE
  5
98
330
1F
100
AcDbEntity
  8
0
  6
Continuous
 62
     7
370
    25
100
AcDbLine
 10
-202.020619839
 20
48.9429809447
 30
0.0
 11
-143.505700707
 21
63.8196558054
 31
0.0
  0
LINE
  5
99
330
1F
100
AcDbEntity
  8
0
  6
Continuous
 62
     7
370
    25
100
AcDbLine
 10
-143.505700707
 20
173.94298467
 30
0.0
 11
-202.020619839
 21
188.8196595307
 31
0.0
  0
ARC
  5
9A
330
1F
100
AcDbEntity
  8
0
  6
Continuous
 62
     7
370
    25
100
AcDbCircle
 10
-143.0129046918
 20
175.8813202377
 30
0.0
 40
2.00000000000001
100
AcDbArc
 50
255.7354877019
 51
270.0
  0
ARC
  5
9B
330
1F
100
AcDbEntity
  8
0
  6
Continuous
 62
     7
370
    25
100
AcDbCircle
 10
-143.0129046918
 20
61.8813202377
 30
0.0
 40
2.0
100
AcDbArc
 50
90.0
 51
104.2645122981
  0
LINE
  5
9C
330
1F
100
AcDbEntity
  8
0
  6
Continuous
 62
     7
370
    25
100
AcDbLine
 10
-61.2631634172
 20
173.8813199397
 30
0.0
 11
-143.0129044052
 21
173.8813199397
 31
0.0
  0
LINE
  5
9D
330
1F
100
AcDbEntity
  8
0
  6
Continuous
 62
     7
370
    25
100
AcDbLine
 10
-143.0129044052
 20
63.8813205357
 30
0.0
 11
-61.2631634172
 21
63.8813205357
 31
0.0
  0
LINE
  5
9E
330
1F
100
AcDbEntity
  8
0
  6
Continuous
 62
     7
370
    25
100
AcDbLine
 10
-294.263158768
 20
188.8813205357
 30
0.0
 11
-294.263158768
 21
48.8813199397
 31
0.0
  0
LINE
  5
9F
330
1F
100
AcDbEntity
  8
0
  6
Continuous
 62
     7
370
    25
100
AcDbLine
 10
-61.2631634172
 20
173.8813199397
 30
0.0
 11
-61.2631634172
 21
63.8813205357
 31
0.0
  0
LINE
  5
A0
330
1F
100
AcDbEntity
  8
0
  6
Continuous
 62
     1
370
    25
100
AcDbLine
 10
-202.020619839
 20
188.8196595307
 30
0.0
 11
-202.020619839
 21
48.9429809447
 31
0.0
  0
LINE
  5
A1
330
1F
100
AcDbEntity
  8
0
  6
Continuous
 62
     1
370
    25
100
AcDbLine
 10
-202.5134180035
 20
188.8813205357
 30
0.0
 11
-202.5134180035
 21
48.8813199397
 31
0.0
  0
LINE
  5
A2
330
1F
100
AcDbEntity
  8
0
  6
Continuous
 62
     1
370
    25
100
AcDbLine
 10
-143.505700707
 20
173.94298467
 30
0.0
 11
-143.505700707
 21
63.8196558054
 31
0.0
  0
LINE
  5
A3
330
1F
100
AcDbEntity
  8
0
  6
Continuous
 62
     1
370
    25
100
AcDbLine
 10
-143.0129044052
 20
173.8813199397
 30
0.0
 11
-143.0129044052
 21
63.8813205357
 31
0.0
  0
ARC
  5
A4
330
1F
100
AcDbEntity
  8
0
  6
Continuous
 62
     7
370
    25
100
AcDbCircle
 10
204.0804557792
 20
374.6397546354
 30
0.0
 40
2.0
100
AcDbArc
 50
345.7354877019
 51
0.0
  0
ARC
  5
A5
330
1F
100
AcDbEntity
  8
0
  6
Continuous
 62
     7
370
    25
100
AcDbCircle
 10
68.0804557792
 20
374.6397546354
 30
0.0
 40
2.0
100
AcDbArc
 50
180.0
 51
194.2645122981
  0
LINE
  5
A6
330
1F
100
AcDbEntity
  8
0
  6
Continuous
 62
     7
370
    25
100
AcDbLine
 10
206.0804560772
 20
374.6397546083
 30
0.0
 11
206.0804560772
 21
466.3894953728
 31
0.0
  0
LINE
  5
A7
330
1F
100
AcDbEntity
  8
0
  6
Continuous
 62
     7
370
    25
100
AcDbLine
 10
66.0804554812
 20
466.3894953728
 30
0.0
 11
66.0804554812
 21
374.6397546083
 31
0.0
  0
LINE
  5
A8
330
1F
100
AcDbEntity
  8
0
  6
Continuous
 62
     7
370
    25
100
AcDbLine
 10
66.1421164862
 20
374.1469564438
 30
0.0
 11
81.0187913469
 21
315.6320373118
 31
0.0
  0
LINE
  5
A9
330
1F
100
AcDbEntity
  8
0
  6
Continuous
 62
     7
370
    25
100
AcDbLine
 10
191.1421202115
 20
315.6320373118
 30
0.0
 11
206.0187950722
 21
374.1469564438
 31
0.0
  0
ARC
  5
AA
330
1F
100
AcDbEntity
  8
0
  6
Continuous
 62
     7
370
    25
100
AcDbCircle
 10
193.0804557792
 20
315.1392412965
 30
0.0
 40
2.000000000000045
100
AcDbArc
 50
165.7354877019
 51
180.0
  0
ARC
  5
AB
330
1F
100
AcDbEntity
  8
0
  6
Continuous
 62
     7
370
    25
100
AcDbCircle
 10
79.0804557792
 20
315.1392412965
 30
0.0
 40
2.000000000000004
100
AcDbArc
 50
0.0
 51
14.2645122981
  0
LINE
  5
AC
330
1F
100
AcDbEntity
  8
0
  6
Continuous
 62
     7
370
    25
100
AcDbLine
 10
191.0804554812
 20
233.3895000219
 30
0.0
 11
191.0804554812
 21
315.13924101
 31
0.0
  0
LINE
  5
AD
330
1F
100
AcDbEntity
  8
0
  6
Continuous
 62
     7
370
    25
100
AcDbLine
 10
81.0804560772
 20
315.13924101
 30
0.0
 11
81.0804560772
 21
233.3895000219
 31
0.0
  0
LINE
  5
AE
330
1F
100
AcDbEntity
  8
0
  6
Continuous
 62
     7
370
    25
100
AcDbLine
 10
206.0804560772
 20
466.3894953728
 30
0.0
 11
66.0804554812
 21
466.3894953728
 31
0.0
  0
LINE
  5
AF
330
1F
100
AcDbEntity
  8
0
  6
Continuous
 62
     7
370
    25
100
AcDbLine
 10
191.0804554812
 20
233.3895000219
 30
0.0
 11
81.0804560772
 21
233.3895000219
 31
0.0
  0
LINE
  5
B0
330
1F
100
AcDbEntity
  8
0
  6
Continuous
 62
     1
370
    25
100
AcDbLine
 10
206.0187950722
 20
374.1469564438
 30
0.0
 11
66.1421164862
 21
374.1469564438
 31
0.0
  0
LINE
  5
B1
330
1F
100
AcDbEntity
  8
0
  6
Continuous
 62
     1
370
    25
100
AcDbLine
 10
206.0804560772
 20
374.6397546083
 30
0.0
 11
66.0804554812
 21
374.6397546083
 31
0.0
  0
LINE
  5
B2
330
1F
100
AcDbEntity
  8
0
  6
Continuous
 62
     1
370
    25
100
AcDbLine
 10
191.1421202115
 20
315.6320373118
 30
0.0
 11
81.0187913469
 21
315.6320373118
 31
0.0
  0
LINE
  5
B3
330
1F
100
AcDbEntity
  8
0
  6
Continuous
 62
     1
370
    25
100
AcDbLine
 10
191.0804554812
 20
315.13924101
 30
0.0
 11
81.0804560772
 21
315.13924101
 31
0.0
  0
ARC
  5
B4
330
1F
100
AcDbEntity
  8
0
  6
Continuous
 62
     7
370
    25
100
AcDbCircle
 10
464.3274919707
 20
50.8813202377
 30
0.0
 40
2.000000000000007
100
AcDbArc
 50
255.7354877019
 51
270.0
  0
ARC
  5
B5
330
1F
100
AcDbEntity
  8
0
  6
Continuous
 62
     7
370
    25
100
AcDbCircle
 10
464.3274919707
 20
186.8813202377
 30
0.0
 40
2.0
100
AcDbArc
 50
90.0
 51
104.2645122981
  0
LINE
  5
B6
330
1F
100
AcDbEntity
  8
0
  6
Continuous
 62
     7
370
    25
100
AcDbLine
 10
464.3274919436
 20
48.8813199397
 30
0.0
 11
556.0772327081
 21
48.8813199397
 31
0.0
  0
LINE
  5
B7
330
1F
100
AcDbEntity
  8
0
  6
Continuous
 62
     7
370
    25
100
AcDbLine
 10
556.0772327081
 20
188.8813205357
 30
0.0
 11
464.3274919436
 21
188.8813205357
 31
0.0
  0
LINE
  5
B8
330
1F
100
AcDbEntity
  8
0
  6
Continuous
 62
     7
370
    25
100
AcDbLine
 10
463.8346937791
 20
188.8196595307
 30
0.0
 11
405.3197746471
 21
173.94298467
 31
0.0
  0
LINE
  5
B9
330
1F
100
AcDbEntity
  8
0
  6
Continuous
 62
     7
370
    25
100
AcDbLine
 10
405.3197746471
 20
63.8196558054
 30
0.0
 11
463.8346937791
 21
48.9429809447
 31
0.0
  0
ARC
  5
BA
330
1F
100
AcDbEntity
  8
0
  6
Continuous
 62
     7
370
    25
100
AcDbCircle
 10
404.8269786318
 20
61.8813202377
 30
0.0
 40
2.0
100
AcDbArc
 50
75.7354877019
 51
90.0
  0
ARC
  5
BB
330
1F
100
AcDbEntity
  8
0
  6
Continuous
 62
     7
370
    25
100
AcDbCircle
 10
404.8269786318
 20
175.8813202377
 30
0.0
 40
2.000000000000017
100
AcDbArc
 50
270.0
 51
284.2645122981
  0
LINE
  5
BC
330
1F
100
AcDbEntity
  8
0
  6
Continuous
 62
     7
370
    25
100
AcDbLine
 10
323.0772373572
 20
63.8813205357
 30
0.0
 11
404.8269783452
 21
63.8813205357
 31
0.0
  0
LINE
  5
BD
330
1F
100
AcDbEntity
  8
0
  6
Continuous
 62
     7
370
    25
100
AcDbLine
 10
404.8269783452
 20
173.8813199397
 30
0.0
 11
323.0772373572
 21
173.8813199397
 31
0.0
  0
LINE
  5
BE
330
1F
100
AcDbEntity
  8
0
  6
Continuous
 62
     7
370
    25
100
AcDbLine
 10
556.0772327081
 20
118.8813202377
 30
0.0
 11
556.0772327081
 21
188.8813205357
 31
0.0
  0
LINE
  5
BF
330
1F
100
AcDbEntity
  8
0
  6
Continuous
 62
     7
370
    25
100
AcDbLine
 10
556.0772327081
 20
48.8813199397
 30
0.0
 11
556.0772327081
 21
118.8813202377
 31
0.0
  0
LINE
  5
C0
330
1F
100
AcDbEntity
  8
0
  6
Continuous
 62
     7
370
    25
100
AcDbLine
 10
323.0772373572
 20
118.8813202377
 30
0.0
 11
323.0772373572
 21
173.8813199397
 31
0.0
  0
LINE
  5
C1
330
1F
100
AcDbEntity
  8
0
  6
Continuous
 62
     7
370
    25
100
AcDbLine
 10
323.0772373572
 20
63.8813205357
 30
0.0
 11
323.0772373572
 21
118.8813202377
 31
0.0
  0
LINE
  5
C2
330
1F
100
AcDbEntity
  8
0
  6
Continuous
 62
     1
370
    25
100
AcDbLine
 10
463.8346937791
 20
118.8813202377
 30
0.0
 11
463.8346937791
 21
188.8196595307
 31
0.0
  0
LINE
  5
C3
330
1F
100
AcDbEntity
  8
0
  6
Continuous
 62
     1
370
    25
100
AcDbLine
 10
463.8346937791
 20
48.9429809447
 30
0.0
 11
463.8346937791
 21
118.8813202377
 31
0.0
  0
LINE
  5
C4
330
1F
100
AcDbEntity
  8
0
  6
Continuous
 62
     1
370
    25
100
AcDbLine
 10
464.3274919436
 20
118.8813202377
 30
0.0
 11
464.3274919436
 21
188.8813205357
 31
0.0
  0
LINE
  5
C5
330
1F
100
AcDbEntity
  8
0
  6
Continuous
 62
     1
370
    25
100
AcDbLine
 10
464.3274919436
 20
48.8813199397
 30
0.0
 11
464.3274919436
 21
118.8813202377
 31
0.0
  0
LINE
  5
C6
330
1F
100
AcDbEntity
  8
0
  6
Continuous
 62
     1
370
    25
100
AcDbLine
 10
405.3197746471
 20
118.8813202377
 30
0.0
 11
405.3197746471
 21
173.94298467
 31
0.0
  0
LINE
  5
C7
330
1F
100
AcDbEntity
  8
0
  6
Continuous
 62
     1
370
    25
100
AcDbLine
 10
405.3197746471
 20
63.8196558054
 30
0.0
 11
405.3197746471
 21
118.8813202377
 31
0.0
  0
LINE
  5
C8
330
1F
100
AcDbEntity
  8
0
  6
Continuous
 62
     1
370
    25
100
AcDbLine
 10
404.8269783452
 20
118.8813202377
 30
0.0
 11
404.8269783452
 21
173.8813199397
 31
0.0
  0
LINE
  5
C9
330
1F
100
AcDbEntity
  8
0
  6
Continuous
 62
     1
370
    25
100
AcDbLine
 10
404.8269783452
 20
63.8813205357
 30
0.0
 11
404.8269783452
 21
118.8813202377
 31
0.0
  0
ARC
  5
CA
330
1F
100
AcDbEntity
  8
0
  6
Continuous
 62
     7
370
    25
100
AcDbCircle
 10
68.0804557792
 20
-180.658627949
 30
0.0
 40
2.0
100
AcDbArc
 50
165.7354877019
 51
180.0
  0
ARC
  5
CB
330
1F
100
AcDbEntity
  8
0
  6
Continuous
 62
     7
370
    25
100
AcDbCircle
 10
204.0804557792
 20
-180.658627949
 30
0.0
 40
2.0
100
AcDbArc
 50
0.0
 51
14.2645122981
  0
LINE
  5
CC
330
1F
100
AcDbEntity
  8
0
  6
Continuous
 62
     7
370
    25
100
AcDbLine
 10
66.0804554812
 20
-180.6586279218
 30
0.0
 11
66.0804554812
 21
-272.4083686863
 31
0.0
  0
LINE
  5
CD
330
1F
100
AcDbEntity
  8
0
  6
Continuous
 62
     7
370
    25
100
AcDbLine
 10
206.0804560772
 20
-272.4083686863
 30
0.0
 11
206.0804560772
 21
-180.6586279218
 31
0.0
  0
LINE
  5
CE
330
1F
100
AcDbEntity
  8
0
  6
Continuous
 62
     7
370
    25
100
AcDbLine
 10
206.0187950722
 20
-180.1658297573
 30
0.0
 11
191.1421202115
 21
-121.6509106253
 31
0.0
  0
LINE
  5
CF
330
1F
100
AcDbEntity
  8
0
  6
Continuous
 62
     7
370
    25
100
AcDbLine
 10
81.0187913469
 20
-121.6509106253
 30
0.0
 11
66.1421164862
 21
-180.1658297573
 31
0.0
  0
ARC
  5
D0
330
1F
100
AcDbEntity
  8
0
  6
Continuous
 62
     7
370
    25
100
AcDbCircle
 10
79.0804557792
 20
-121.15811461
 30
0.0
 40
2.0
100
AcDbArc
 50
345.7354877019
 51
0.0
  0
ARC
  5
D1
330
1F
100
AcDbEntity
  8
0
  6
Continuous
 62
     7
370
    25
100
AcDbCircle
 10
193.0804557792
 20
-121.15811461
 30
0.0
 40
2.000000000000038
100
AcDbArc
 50
180.0
 51
194.2645122981
  0
LINE
  5
D2
330
1F
100
AcDbEntity
  8
0
  6
Continuous
 62
     7
370
    25
100
AcDbLine
 10
81.0804560772
 20
-39.4083733355
 30
0.0
 11
81.0804560772
 21
-121.1581143235
 31
0.0
  0
LINE
  5
D3
330
1F
100
AcDbEntity
  8
0
  6
Continuous
 62
     7
370
    25
100
AcDbLine
 10
191.0804554812
 20
-121.1581143235
 30
0.0
 11
191.0804554812
 21
-39.4083733355
 31
0.0
  0
LINE
  5
D4
330
1F
100
AcDbEntity
  8
0
  6
Continuous
 62
     7
370
    25
100
AcDbLine
 10
66.0804554812
 20
-272.4083686863
 30
0.0
 11
206.0804560772
 21
-272.4083686863
 31
0.0
  0
LINE
  5
D5
330
1F
100
AcDbEntity
  8
0
  6
Continuous
 62
     7
370
    25
100
AcDbLine
 10
81.0804560772
 20
-39.4083733355
 30
0.0
 11
191.0804554812
 21
-39.4083733355
 31
0.0
  0
LINE
  5
D6
330
1F
100
AcDbEntity
  8
0
  6
Continuous
 62
     1
370
    25
100
AcDbLine
 10
66.1421164862
 20
-180.1658297573
 30
0.0
 11
206.0187950722
 21
-180.1658297573
 31
0.0
  0
LINE
  5
D7
330
1F
100
AcDbEntity
  8
0
  6
Continuous
 62
     1
370
    25
100
AcDbLine
 10
66.0804554812
 20
-180.6586279218
 30
0.0
 11
206.0804560772
 21
-180.6586279218
 31
0.0
  0
LINE
  5
D8
330
1F
100
AcDbEntity
  8
0
  6
Continuous
 62
     1
370
    25
100
AcDbLine
 10
81.0187913469
 20
-121.6509106253
 30
0.0
 11
191.1421202115
 21
-121.6509106253
 31
0.0
  0
LINE
  5
D9
330
1F
100
AcDbEntity
  8
0
  6
Continuous
 62
     1
370
    25
100
AcDbLine
 10
81.0804560772
 20
-121.1581143235
 30
0.0
 11
191.0804554812
 21
-121.1581143235
 31
0.0
  0
LINE
  5
DA
330
1F
100
AcDbEntity
  8
0
  6
Continuous
 62
     7
370
    25
100
AcDbLine
 10
462.6250703774
 20
-95.0177130709
 30
0.0
 11
397.7482065107
 21
-57.565096762
 31
0.0
  0
LINE
  5
DB
330
1F
100
AcDbEntity
  8
0
  6
Continuous
 62
     7
370
    25
100
AcDbLine
 10
327.7538973225
 20
-178.8119369595
 30
0.0
 11
392.6307611892
 21
-216.2645532684
 31
0.0
  0
SPLINE
  5
DC
330
1F
100
AcDbEntity
  8
0
  6
Continuous
 62
     7
370
    25
100
AcDbSpline
210
0.0
220
0.0
230
1.0
 70
     8
 71
     3
 72
     9
 73
     5
 74
     0
 42
0.000000001
 43
0.00000001
 40
0.0
 40
0.0
 40
0.0
 40
0.0
 40
0.3051219592098459
 40
0.9999999999999999
 40
0.9999999999999999
 40
0.9999999999999999
 40
0.9999999999999999
 10
466.6115392634363
 20
-97.90287208838174
 30
0.0
 10
466.4762877645652
 20
-97.7755847133547
 30
0.0
 10
466.0330174761159
 20
-97.35841586927461
 30
0.0
 10
465.5450585731227
 20
-97.00570907466859
 30
0.0
 10
465.2059866466246
 20
-96.76062086825938
 30
0.0
  0
LINE
  5
DD
330
1F
100
AcDbEntity
  8
0
  6
Continuous
 62
     7
370
    25
100
AcDbLine
 10
395.2819388891
 20
-217.587047002
 30
0.0
 11
397.0678944726
 21
-218.2659655342
 31
0.0
  0
LINE
  5
DE
330
1F
100
AcDbEntity
  8
0
  6
Continuous
 62
     7
370
    25
100
AcDbLine
 10
399.8673421513
 20
-219.055067228
 30
0.0
 11
447.2227456164
 21
-229.4950245081
 31
0.0
  0
LINE
  5
DF
330
1F
100
AcDbEntity
  8
0
  6
Continuous
 62
     7
370
    25
100
AcDbLine
 10
501.3828025546
 20
-135.6768885577
 30
0.0
 11
468.6604740595
 21
-99.8889521992
 31
0.0
  0
LINE
  5
E0
330
1F
100
AcDbEntity
  8
0
  6
Continuous
 62
     7
370
    25
100
AcDbLine
 10
555.0046942867
 20
-165.6673709231
 30
0.0
 11
499.5145275905
 21
-133.6335795478
 31
0.0
  0
LINE
  5
E1
330
1F
100
AcDbEntity
  8
0
  6
Continuous
 62
     7
370
    25
100
AcDbLine
 10
444.5189963085
 20
-228.8989576822
 30
0.0
 11
500.0091630046
 21
-260.9327490575
 31
0.0
  0
LWPOLYLINE
  5
E2
330
1F
100
AcDbEntity
  8
0
  6
Continuous
 62
     7
370
    25
100
AcDbPolyline
 90
      116
 70
   128
 43
0.0
 10
313.2535770228
 20
-146.7628008962
 10
313.3274393749
 20
-143.5988152753
 10
313.5487946232
 20
-140.3589994882
 10
313.9169947602
 20
-137.0530143945
 10
314.4309334309
 20
-133.6907314593
 10
315.0890775438
 20
-130.2821833256
 10
315.8894620021
 20
-126.837545563
 10
316.8297055089
 20
-123.3670910413
 10
317.9069894935
 20
-119.8811861261
 10
319.1181107956
 20
-116.3902260446
 10
320.4594500545
 20
-112.9046333614
 10
321.9270006855
 20
-109.4348108332
 10
323.516389953
 20
-105.9911125122
 10
325.222868434
 20
-102.5838178901
 10
327.0413442624
 20
-99.2230938781
 10
328.9663962997
 20
-95.9189659102
 10
330.9922715013
 20
-92.681301213
 10
333.1129270626
 20
-89.5197631821
 10
335.3220383222
 20
-86.4437794427
 10
337.61300403
 20
-83.4625357673
 10
339.9789937624
 20
-80.5849304517
 10
342.4129452879
 20
-77.8195454174
 10
344.9075922266
 20
-75.1746424118
 10
347.4554917083
 20
-72.6581044554
 10
350.0490375441
 20
-70.2774495311
 10
352.6804931531
 20
-68.0397781155
 10
355.3420027577
 20
-65.9517727994
 10
358.0256233235
 20
-64.019661599
 10
360.7233467845
 20
-62.2492112085
 10
363.4271217757
 20
-60.6457022872
 10
366.1288791511
 20
-59.213932979
 10
368.8205556919
 20
-57.9581565568
 10
371.4941179781
 20
-56.8821406455
 10
374.1415880724
 20
-55.9890793913
 10
376.7550640992
 20
-55.2816485018
 10
379.3267475744
 20
-54.7619590508
 10
381.8489611861
 20
-54.431553297
 10
384.3141804049
 20
-54.2914290222
 10
386.7150466544
 20
-54.3419954254
 10
389.0443923361
 20
-54.5831073462
 10
391.2952711226
 20
-55.0140416929
 10
393.4609632257
 20
-55.6335126527
 10
395.5350017384
 20
-56.4396747359
 10
397.5112042448
 20
-57.4301166949
 10
399.3836649178
 20
-58.6018873797
 10
401.1468019341
 20
-59.9514866161
 10
402.7953495718
 20
-61.4748910615
 10
404.3243898206
 20
-63.1675481234
 10
405.7293602841
 20
-65.0244109421
 10
407.0060647166
 20
-67.0399353492
 10
408.1506940968
 20
-69.2081087679
 10
409.1598371642
 20
-71.5224562968
 10
410.0304751506
 20
-73.9760756916
 10
410.7600107565
 20
-76.561643451
 10
411.3462734193
 20
-79.2714391519
 10
411.787503508
 20
-82.0973819505
 10
412.0823944703
 20
-85.0310321072
 10
412.2300559541
 20
-88.0636404128
 10
412.2300559541
 20
-91.1861512346
 10
412.0823944703
 20
-94.3892458605
 10
411.787503508
 20
-97.663369875
 10
411.3462734193
 20
-100.9987460905
 10
410.7600107565
 20
-104.385426254
 10
410.0304751506
 20
-107.813297895
 10
409.1598371642
 20
-111.2721345123
 10
408.1506940968
 20
-114.7516138262
 10
407.0060647166
 20
-118.241348197
 10
405.7293602841
 20
-121.730924166
 10
404.3243898206
 20
-125.2099313534
 10
402.7953495718
 20
-128.6679807092
 10
401.1468019341
 20
-132.0947577426
 10
399.3836649178
 20
-135.4800316475
 10
397.5112042448
 20
-138.813699408
 10
395.5350017384
 20
-142.0858162141
 10
393.4609632257
 20
-145.2866121928
 10
391.2952711226
 20
-148.4065380313
 10
389.0443923361
 20
-151.4362817076
 10
386.7150466544
 20
-154.3667989069
 10
384.3141804049
 20
-157.1893464785
 10
381.8489611861
 20
-159.8955037289
 10
379.3267475744
 20
-162.4771838258
 10
376.7550640992
 20
-164.926696914
 10
374.1415880724
 20
-167.2367212167
 10
371.4941179781
 20
-169.4003638695
 10
368.8205556919
 20
-171.4111772689
 10
366.1288791511
 20
-173.2631444304
 10
363.4271217757
 20
-174.95075779
 10
360.7233467845
 20
-176.468961026
 10
358.0256233235
 20
-177.8132358449
 10
355.3420027577
 20
-178.9795669975
 10
352.6804931531
 20
-179.9644752621
 10
350.0490375441
 20
-180.7650178223
 10
347.4554917083
 20
-181.3788071815
 10
344.9075922266
 20
-181.80401135
 10
342.4129452879
 20
-182.0393663918
 10
339.9789937624
 20
-182.0841619725
 10
337.61300403
 20
-181.9382702557
 10
335.3220383222
 20
-181.6021192841
 10
333.1129270626
 20
-181.0767211144
 10
330.9922715013
 20
-180.3636398777
 10
328.9663962997
 20
-179.4650009007
 10
327.0413442624
 20
-178.3834907054
 10
325.222868434
 20
-177.1223341943
 10
323.516389953
 20
-175.6852976883
 10
321.9270006855
 20
-174.0766691549
 10
320.4594500545
 20
-172.3012445189
 10
319.1181107956
 20
-170.3643291796
 10
317.9069894935
 20
-168.2716999891
 10
316.8297055089
 20
-166.0296006875
 10
315.8894620021
 20
-163.6447282113
 10
315.0890775438
 20
-161.1241946742
 10
314.4309334309
 20
-158.4755235589
 10
313.9169947602
 20
-155.7066215824
 10
313.5487946232
 20
-152.8257513181
 10
313.3274393749
 20
-149.8415068607
 10
313.2535770228
 20
-146.7628008962
  0
LWPOLYLINE
  5
E3
330
1F
100
AcDbEntity
  8
0
  6
Continuous
 62
     7
370
    25
100
AcDbPolyline
 90
      109
 70
   128
 43
0.0
 10
319.1225625565
 20
-143.3747076652
 10
319.1963748591
 20
-140.4027271325
 10
319.4175641543
 20
-137.3555799265
 10
319.785377067
 20
-134.2435793742
 10
320.2985755338
 20
-131.0772509265
 10
320.9554183627
 20
-127.8673120035
 10
321.7536823077
 20
-124.6246256092
 10
322.6906699704
 20
-121.3601588863
 10
323.7632098004
 20
-118.0849610629
 10
324.9676719004
 20
-114.8101132637
 10
326.2999811971
 20
-111.5466965715
 10
327.7556306117
 20
-108.3057540057
 10
329.3296915972
 20
-105.0982524994
 10
331.0168404798
 20
-101.9350433587
 10
332.8113663615
 20
-98.8268333652
 10
334.7072000962
 20
-95.7841345884
 10
336.6979248261
 20
-92.8172461356
 10
338.776804958
 20
-89.936203964
 10
340.9368072366
 20
-87.1507595897
 10
343.1706218178
 20
-84.470337504
 10
345.4706899278
 20
-81.9040070385
 10
347.8292302046
 20
-79.4604519492
 10
350.2382597718
 20
-77.1479430419
 10
352.6896297996
 20
-74.974299392
 10
355.1750446028
 20
-72.9468773193
 10
357.6860935802
 20
-71.0725428243
 10
360.2142808492
 20
-69.357630146
 10
362.7510519166
 20
-67.8079476577
 10
365.287822984
 20
-66.4287366149
 10
367.816010253
 20
-65.2246664047
 10
370.3270592305
 20
-64.1998054614
 10
372.8124740337
 20
-63.3576286835
 10
375.2638440615
 20
-62.7009807437
 10
377.6728736287
 20
-62.2320833166
 10
380.0314139055
 20
-61.9525257653
 10
382.3314820155
 20
-61.8632541172
 10
384.5652965967
 20
-61.9645687852
 10
386.7252988753
 20
-62.2561276125
 10
388.8041790072
 20
-62.736945874
 10
390.7949037371
 20
-63.4053924774
 10
392.6907374717
 20
-64.2592082159
 10
394.4852633535
 20
-65.2955027283
 10
396.1724122361
 20
-66.5107712322
 10
397.7464732216
 20
-67.9009006085
 10
399.2021226362
 20
-69.461186134
 10
400.5344319328
 20
-71.1863512548
 10
401.7388940329
 20
-73.070556714
 10
402.8114338629
 20
-75.1074264082
 10
403.7484215256
 20
-77.2900702031
 10
404.5466854705
 20
-79.6111006645
 10
405.2035282995
 20
-82.0626649996
 10
405.7167267662
 20
-84.63646711
 10
406.084539679
 20
-87.3237999124
 10
406.3057289742
 20
-90.1155673942
 10
406.3795412768
 20
-93.0023260563
 10
406.3057289742
 20
-95.974306589
 10
406.084539679
 20
-99.021453795
 10
405.7167267662
 20
-102.1334543473
 10
405.2035282995
 20
-105.299782795
 10
404.5466854705
 20
-108.509721718
 10
403.7484215256
 20
-111.7524081123
 10
402.8114338629
 20
-115.0168748352
 10
401.7388940329
 20
-118.2920726586
 10
400.5344319328
 20
-121.5669204579
 10
399.2021226362
 20
-124.83033715
 10
397.7464732216
 20
-128.0712797158
 10
396.1724122361
 20
-131.2787812221
 10
394.4852633535
 20
-134.4419903628
 10
392.6907374717
 20
-137.5502003563
 10
390.7949037371
 20
-140.5928991331
 10
388.8041790072
 20
-143.5597875859
 10
386.7252988753
 20
-146.4408297575
 10
384.5652965967
 20
-149.2262741318
 10
382.3314820155
 20
-151.9066962175
 10
380.0314139055
 20
-154.473026683
 10
377.6728736287
 20
-156.9165817723
 10
375.2638440615
 20
-159.2290906796
 10
372.8124740337
 20
-161.4027343295
 10
370.3270592305
 20
-163.4301564022
 10
367.816010253
 20
-165.3044908972
 10
365.287822984
 20
-167.0194035755
 10
362.7510519166
 20
-168.5690860638
 10
360.2142808492
 20
-169.9482971067
 10
357.6860935802
 20
-171.1523673169
 10
355.1750446028
 20
-172.1772282601
 10
352.6896297996
 20
-173.0194050381
 10
350.2382597718
 20
-173.6760529778
 10
347.8292302046
 20
-174.1449504049
 10
345.4706899278
 20
-174.4245079562
 10
343.1706218178
 20
-174.5137796044
 10
340.9368072366
 20
-174.4124649363
 10
338.776804958
 20
-174.120906109
 10
336.6979248261
 20
-173.6400878475
 10
334.7072000962
 20
-172.9716412441
 10
332.8113663615
 20
-172.1178255056
 10
331.0168404798
 20
-171.0815309932
 10
329.3296915972
 20
-169.8662624893
 10
327.7556306117
 20
-168.476133113
 10
326.2999811971
 20
-166.9158475875
 10
324.9676719004
 20
-165.1906824667
 10
323.7632098004
 20
-163.3064770075
 10
322.6906699704
 20
-161.2696073133
 10
321.7536823077
 20
-159.0869635184
 10
320.9554183627
 20
-156.765933057
 10
320.2985755338
 20
-154.3143687219
 10
319.785377067
 20
-151.7405666115
 10
319.4175641543
 20
-149.0532338091
 10
319.1963748591
 20
-146.2614663273
 10
319.1225625565
 20
-143.3747076652
  0
LWPOLYLINE
  5
E4
330
1F
100
AcDbEntity
  8
0
  6
Continuous
 62
     7
370
    25
100
AcDbPolyline
 90
        3
 70
   128
 43
0.0
 10
462.6250703774
 20
-95.0177130709
 10
464.2605287845
 20
-96.0545036886
 10
465.0796080043
 20
-96.6490085316
  0
LWPOLYLINE
  5
E5
330
1F
100
AcDbEntity
  8
0
  6
Continuous
 62
     7
370
    25
100
AcDbPolyline
 90
        3
 70
   128
 43
0.0
 10
395.1383195515
 20
-217.5181591629
 10
393.8432601664
 20
-216.9176172096
 10
392.6307611892
 20
-216.2645532684
  0
ARC
  5
E6
330
1F
100
AcDbEntity
  8
0
  6
Continuous
 62
     7
370
    25
100
AcDbCircle
 10
449.6052887158
 20
-117.3633476548
 30
0.0
 40
25.85419823010228
100
AcDbArc
 50
34.7516174549
 51
48.5371190289
  0
ARC
  5
E7
330
1F
100
AcDbEntity
  8
0
  6
Continuous
 62
     7
370
    25
100
AcDbCircle
 10
405.5065148364
 20
-193.6546939869
 30
0.0
 40
26.01749273146071
100
AcDbArc
 50
251.394836905
 51
265.5889064432
  0
LWPOLYLINE
  5
E8
330
1F
100
AcDbEntity
  8
0
  6
Continuous
 62
     7
370
    25
100
AcDbPolyline
 90
        3
 70
   128
 43
0.0
 10
501.3828025546
 20
-135.6768885577
 10
502.4554319466
 20
-136.9500664437
 10
502.9637887941
 20
-137.6320698886
  0
LINE
  5
E9
330
1F
100
AcDbEntity
  8
0
  6
Continuous
 62
     7
370
    25
100
AcDbLine
 10
447.2913290756
 20
-229.5100181462
 30
0.0
 11
447.2227456164
 21
-229.4950245081
 31
0.0
  0
LWPOLYLINE
  5
EA
330
1F
100
AcDbEntity
  8
0
  6
Continuous
 62
     7
370
    25
100
AcDbPolyline
 90
       53
 70
   128
 43
0.0
 10
555.0046942867
 20
-165.6673709231
 10
555.2199408762
 20
-165.793592979
 10
556.8626511754
 20
-166.8957764812
 10
558.3917915229
 20
-168.1774885317
 10
559.8014429208
 20
-169.633770357
 10
561.0861526204
 20
-171.2589894573
 10
562.2409525619
 20
-173.0468578593
 10
563.2613699112
 20
-174.9904579728
 10
564.1434639379
 20
-177.082269971
 10
564.8838154789
 20
-179.3142022079
 10
565.4795664509
 20
-181.6776178381
 10
565.9284066799
 20
-184.1633751207
 10
566.2286002426
 20
-186.7618578393
 10
566.3789881007
 20
-189.4630108549
 10
566.3789881007
 20
-192.2563845921
 10
566.2286002426
 20
-195.1311717325
 10
565.9284066799
 20
-198.0762505612
 10
565.4795664509
 20
-201.0802277415
 10
564.8838154789
 20
-204.1314828031
 10
564.1434639379
 20
-207.2182067344
 10
563.2613699112
 20
-210.3284628175
 10
562.2409525619
 20
-213.4502117249
 10
561.0861526204
 20
-216.5713837593
 10
559.8014429208
 20
-219.679897106
 10
558.3917915229
 20
-222.7637277919
 10
556.8626511754
 20
-225.8109477078
 10
555.2199408762
 20
-228.8097641504
 10
553.4700142627
 20
-231.7485760943
 10
551.6196411726
 20
-234.6160167752
 10
549.6759813016
 20
-237.4009871486
 10
547.6465525938
 20
-240.0927167237
 10
545.5392075341
 20
-242.6807894164
 10
543.3621002205
 20
-245.155196019
 10
541.1236521201
 20
-247.5063600519
 10
538.8325230933
 20
-249.7251879521
 10
536.4975778076
 20
-251.8030915032
 10
534.1278488596
 20
-253.7320365018
 10
531.7325054936
 20
-255.5045577738
 10
529.3208140895
 20
-257.1137971937
 10
526.9021051117
 20
-258.5535318897
 10
524.4857358602
 20
-259.8181866221
 10
522.0810553209
 20
-260.9028723254
 10
519.6973665464
 20
-261.8033926162
 10
517.3438911354
 20
-262.5162642993
 10
515.0297347827
 20
-263.038728129
 10
512.763849084
 20
-263.3687617336
 10
510.5550025592
 20
-263.5050872177
 10
508.411740482
 20
-263.4471821846
 10
506.3423526107
 20
-263.1952649045
 10
504.3548481634
 20
-262.7503148446
 10
502.4569123547
 20
-262.1140521328
 10
500.65589059
 20
-261.2889345139
 10
500.0091630046
 20
-260.9327490575
  0
LWPOLYLINE
  5
EB
330
1F
100
AcDbEntity
  8
0
  6
Continuous
 62
     1
370
    25
100
AcDbPolyline
 90
       57
 70
   128
 43
0.0
 10
465.0796080043
 20
-96.6490085316
 10
466.0236658008
 20
-97.404102925
 10
467.6722134385
 20
-98.9275073704
 10
469.2012536873
 20
-100.6201644323
 10
470.6062241507
 20
-102.477027251
 10
471.8829285833
 20
-104.4925516581
 10
473.0275579635
 20
-106.6607250768
 10
474.0367010308
 20
-108.9750726057
 10
474.9073390172
 20
-111.4286920005
 10
475.6368746232
 20
-114.0142597599
 10
476.223137286
 20
-116.7240554608
 10
476.6643673747
 20
-119.5499982594
 10
476.959258337
 20
-122.4836484161
 10
477.1069198207
 20
-125.5162567217
 10
477.1069198207
 20
-128.6387675435
 10
476.959258337
 20
-131.8418621693
 10
476.6643673747
 20
-135.1159861839
 10
476.223137286
 20
-138.4513623994
 10
475.6368746232
 20
-141.8380425629
 10
474.9073390172
 20
-145.2659142039
 10
474.0367010308
 20
-148.7247508211
 10
473.0275579635
 20
-152.2042301351
 10
471.8829285833
 20
-155.6939645059
 10
470.6062241507
 20
-159.1835404748
 10
469.2012536873
 20
-162.6625476623
 10
467.6722134385
 20
-166.120597018
 10
466.0236658008
 20
-169.5473740515
 10
464.2605287845
 20
-172.9326479564
 10
462.3880681115
 20
-176.2663157169
 10
460.4118656051
 20
-179.538432523
 10
458.3378270924
 20
-182.7392285017
 10
456.1721349893
 20
-185.8591543401
 10
453.9212562028
 20
-188.8888980165
 10
451.5919105211
 20
-191.8194152158
 10
449.1910442716
 20
-194.6419627874
 10
446.7258250528
 20
-197.3481200378
 10
444.2036114411
 20
-199.9298001347
 10
441.6319279658
 20
-202.3793132229
 10
439.0184519391
 20
-204.6893375256
 10
436.3709818448
 20
-206.8529801784
 10
433.6974195586
 20
-208.8637935778
 10
431.0057430178
 20
-210.7157607393
 10
428.3039856424
 20
-212.4033740989
 10
425.6002106512
 20
-213.9215773349
 10
422.9024871902
 20
-215.2658521538
 10
420.2188666244
 20
-216.4321833064
 10
417.5573570197
 20
-217.417091571
 10
414.9259014108
 20
-218.2176341312
 10
412.332355575
 20
-218.8314234904
 10
409.7844560933
 20
-219.2566276589
 10
407.2898091546
 20
-219.4919827007
 10
404.855857629
 20
-219.5367782814
 10
402.4898678967
 20
-219.3908865646
 10
400.1989021889
 20
-219.054735593
 10
397.9897909293
 20
-218.5293374233
 10
395.869135368
 20
-217.8162561865
 10
395.1383195515
 20
-217.5181591629
  0
LWPOLYLINE
  5
EC
330
1F
100
AcDbEntity
  8
0
  6
Continuous
 62
     1
370
    25
100
AcDbPolyline
 90
       50
 70
   128
 43
0.0
 10
470.8478954972
 20
-102.6259386813
 10
470.9168240338
 20
-102.7250228173
 10
472.1924036723
 20
-104.7387721985
 10
473.3360267965
 20
-106.905033719
 10
474.3442795116
 20
-109.2173431239
 10
475.2141483181
 20
-111.6688027319
 10
475.9430464529
 20
-114.2520890428
 10
476.5287875485
 20
-116.959501404
 10
476.9696330472
 20
-119.7829528902
 10
477.2642605917
 20
-122.7140208704
 10
477.4117956349
 20
-125.7439553766
 10
477.4117956349
 20
-128.8637156041
 10
477.2642605917
 20
-132.0639904454
 10
476.9696330472
 20
-135.3352281478
 10
476.5287875485
 20
-138.6676690126
 10
475.9430464529
 20
-142.0513636477
 10
475.2141483181
 20
-145.4762178318
 10
474.3442795116
 20
-148.932006586
 10
473.3360267965
 20
-152.4084197971
 10
472.1924036723
 20
-155.8950804713
 10
470.9168240338
 20
-159.3815827548
 10
469.5130942681
 20
-162.8575223514
 10
467.9854000843
 20
-166.3125284609
 10
466.3383038787
 20
-169.7362865929
 10
464.5767210275
 20
-173.1185765872
 10
462.7059067158
 20
-176.4493106364
 10
460.7314480352
 20
-179.7185439308
 10
458.6592350079
 20
-182.9165187635
 10
456.4954526839
 20
-186.0336964682
 10
454.2465574334
 20
-189.060771106
 10
451.9192611422
 20
-191.9887090074
 10
449.5205101377
 20
-194.8087731057
 10
447.0574627987
 20
-197.5125389041
 10
444.537469799
 20
-200.091951509
 10
441.968053034
 20
-202.5393043348
 10
439.3568792788
 20
-204.8472938549
 10
436.7117410906
 20
-207.0090306263
 10
434.0405337596
 20
-209.0180708472
 10
431.3512283083
 20
-210.8684136923
 10
428.6518510362
 20
-212.5545313735
 10
425.9504578771
 20
-214.071402193
 10
423.2551107739
 20
-215.4144937645
 10
420.5738537243
 20
-216.5797950919
 10
417.9146891967
 20
-217.5638362687
 10
415.285552323
 20
-218.3636729566
 10
412.6942903195
 20
-218.9769226015
 10
410.1486351574
 20
-219.4017558747
 10
407.6561851233
 20
-219.6369012349
 10
405.2243778186
 20
-219.6816544308
 10
403.5054554806
 20
-219.5951197638
  0
LWPOLYLINE
  5
ED
330
1F
100
AcDbEntity
  8
0
  6
Continuous
 62
     1
370
    25
100
AcDbPolyline
 90
       46
 70
   128
 43
0.0
 10
502.9637887941
 20
-137.6320698886
 10
503.6544202247
 20
-138.6560143248
 10
504.7232906447
 20
-140.5177627592
 10
505.6579892067
 20
-142.5282497081
 10
506.454970307
 20
-144.679848917
 10
507.111207275
 20
-146.9644010955
 10
507.6242134467
 20
-149.3732367333
 10
507.9920447987
 20
-151.8972186864
 10
508.2133025825
 20
-154.5267744969
 10
508.2871491295
 20
-157.2519279536
 10
508.2133025825
 20
-160.0623428187
 10
507.9920447987
 20
-162.9473574287
 10
507.6242134467
 20
-165.8960284211
 10
507.111207275
 20
-168.8971683772
 10
506.454970307
 20
-171.9393956314
 10
505.6579892067
 20
-175.0111696322
 10
504.7232906447
 20
-178.1008365698
 10
503.6544202247
 20
-181.1966765228
 10
502.4554319466
 20
-184.2869468036
 10
501.1308724018
 20
-187.3599260638
 10
499.6857649676
 20
-190.4039553578
 10
498.1255966371
 20
-193.407486811
 10
496.4562837739
 20
-196.3591292443
 10
494.6841536738
 20
-199.247686196
 10
492.8159366617
 20
-202.0622000271
 10
490.858713408
 20
-204.7919914614
 10
488.8199109777
 20
-207.4267105353
 10
486.7072620006
 20
-209.9563571269
 10
484.5287809631
 20
-212.3713402698
 10
482.2927325989
 20
-214.662499443
 10
480.0075976442
 20
-216.8211365074
 10
477.6820451788
 20
-218.8390712164
 10
475.3248964065
 20
-220.708643875
 10
472.9450930446
 20
-222.4227670476
 10
470.5516622565
 20
-223.974930593
 10
468.1536833955
 20
-225.3592543233
 10
465.7602526074
 20
-226.5704871453
 10
463.3804492455
 20
-227.6040264487
 10
461.0233004732
 20
-228.4559598338
 10
458.6977480078
 20
-229.1230508488
 10
456.4126130531
 20
-229.6027744441
 10
454.1765646889
 20
-229.8933017595
 10
451.9980836514
 20
-229.9935392845
 10
449.8854346743
 20
-229.9031052818
 10
447.846632244
 20
-229.6223373886
 10
447.2913290756
 20
-229.5100181462
  0
LWPOLYLINE
  5
EE
330
1F
100
AcDbEntity
  8
0
  6
Continuous
 62
     1
370
    25
100
AcDbPolyline
 90
       48
 70
   128
 43
0.0
 10
500.5951780547
 20
-134.8154763645
 10
501.9956467079
 20
-136.263194516
 10
503.2803564075
 20
-137.8884136163
 10
504.4351563491
 20
-139.6762820183
 10
505.4555736984
 20
-141.6198821318
 10
506.337667725
 20
-143.71169413
 10
507.078019266
 20
-145.9436263668
 10
507.673770238
 20
-148.3070419971
 10
508.1226104671
 20
-150.7927992797
 10
508.4228040298
 20
-153.3912819983
 10
508.5731918878
 20
-156.0924350138
 10
508.5731918878
 20
-158.885808751
 10
508.4228040298
 20
-161.7605958915
 10
508.1226104671
 20
-164.7056747202
 10
507.673770238
 20
-167.7096519005
 10
507.078019266
 20
-170.7609069621
 10
506.337667725
 20
-173.8476308933
 10
505.4555736984
 20
-176.9578869765
 10
504.4351563491
 20
-180.0796358839
 10
503.2803564075
 20
-183.2008079183
 10
501.9956467079
 20
-186.309321265
 10
500.5859953101
 20
-189.3931519509
 10
499.0568549625
 20
-192.4403718667
 10
497.4141446633
 20
-195.4391883094
 10
495.6642180499
 20
-198.3780002533
 10
493.8138449597
 20
-201.2454409342
 10
491.8701850887
 20
-204.0304113076
 10
489.840756381
 20
-206.7221408827
 10
487.7334113212
 20
-209.3102135754
 10
485.5563040076
 20
-211.784620178
 10
483.3178559072
 20
-214.1357842109
 10
481.0267268804
 20
-216.3546121111
 10
478.6917815947
 20
-218.4325156622
 10
476.3220526467
 20
-220.3614606608
 10
473.9267092808
 20
-222.1339819328
 10
471.5150178767
 20
-223.7432213527
 10
469.0963088988
 20
-225.1829560487
 10
466.6799396473
 20
-226.4476107811
 10
464.275259108
 20
-227.5322964844
 10
461.8915703335
 20
-228.4328167752
 10
459.5380949225
 20
-229.1456884583
 10
457.2239385698
 20
-229.668152288
 10
454.9580528711
 20
-229.9981858926
 10
452.7492063464
 20
-230.1345113767
 10
450.6059442692
 20
-230.0766063436
 10
448.5365563978
 20
-229.8246890634
 10
446.5490519505
 20
-229.3797390036
 10
446.0829051718
 20
-229.2437351452
  0
ENDSEC
  0
SECTION
  2
OBJECTS
  0
DICTIONARY
  5
C
330
0
100
AcDbDictionary
281
     1
  3
ACAD_GROUP
350
D
  3
ACAD_LAYOUT
350
1A
  3
ACAD_MLINESTYLE
350
17
  3
ACAD_PLOTSETTINGS
350
19
  3
ACAD_PLOTSTYLENAME
350
E
  3
ACAD_SCALELIST
350
47
  0
DICTIONARY
  5
D
102
{ACAD_REACTORS
330
C
102
}
330
C
100
AcDbDictionary
281
     1
  0
DICTIONARY
  5
1A
102
{ACAD_REACTORS
330
C
102
}
330
C
100
AcDbDictionary
281
     1
  3
Layout1
350
1E
  3
Layout2
350
26
  3
Model
350
22
  0
DICTIONARY
  5
17
102
{ACAD_REACTORS
330
C
102
}
330
C
100
AcDbDictionary
281
     1
  3
Standard
350
18
  0
DICTIONARY
  5
19
102
{ACAD_REACTORS
330
C
102
}
330
C
100
AcDbDictionary
281
     1
  0
ACDBDICTIONARYWDFLT
  5
E
102
{ACAD_REACTORS
330
C
102
}
330
C
100
AcDbDictionary
281
     1
  3
Normal
350
F
100
AcDbDictionaryWithDefault
340
F
  0
DICTIONARY
  5
47
102
{ACAD_REACTORS
330
C
102
}
330
C
100
AcDbDictionary
281
     1
  3
A0
350
48
  3
A1
350
49
  3
A2
350
4A
  3
A3
350
4B
  3
A4
350
4C
  3
A5
350
4D
  3
A6
350
4E
  3
A7
350
4F
  3
A8
350
50
  3
A9
350
51
  3
B0
350
52
  3
B1
350
53
  3
B2
350
54
  3
B3
350
55
  3
B4
350
56
  3
B5
350
57
  3
B6
350
58
  3
B7
350
59
  3
B8
350
5A
  3
B9
350
5B
  3
C0
350
5C
  3
C1
350
5D
  3
C2
350
5E
  3
C3
350
5F
  3
C4
350
60
  3
C5
350
61
  3
C6
350
62
  3
C7
350
63
  3
C8
350
64
  3
C9
350
65
  3
D0
350
66
  3
D1
350
67
  3
D2
350
68
  0
LAYOUT
  5
1E
102
{ACAD_REACTORS
330
1A
102
}
330
1A
100
AcDbPlotSettings
  1

  2
none_device
  4

  6

 40
0.0
 41
0.0
 42
0.0
 43
0.0
 44
0.0
 45
0.0
 46
0.0
 47
0.0
 48
0.0
 49
0.0
140
0.0
141
0.0
142
1.0
143
1.0
 70
   688
 72
     1
 73
     0
 74
     5
  7

 75
    16
147
1.0
148
0.0
149
0.0
100
AcDbLayout
  1
Layout1
 70
     1
 71
     1
 10
0.0
 20
0.0
 11
420.0
 21
297.0
 12
0.0
 22
0.0
 32
0.0
 14
1.0000000000E+20
 24
1.0000000000E+20
 34
1.0000000000E+20
 15
-1.0000000000E+20
 25
-1.0000000000E+20
 35
-1.0000000000E+20
146
0.0
 13
0.0
 23
0.0
 33
0.0
 16
1.0
 26
0.0
 36
0.0
 17
0.0
 27
1.0
 37
0.0
 76
     0
330
1B
  0
LAYOUT
  5
26
102
{ACAD_REACTORS
330
1A
102
}
330
1A
100
AcDbPlotSettings
  1

  2
none_device
  4

  6

 40
0.0
 41
0.0
 42
0.0
 43
0.0
 44
0.0
 45
0.0
 46
0.0
 47
0.0
 48
0.0
 49
0.0
140
0.0
141
0.0
142
1.0
143
1.0
 70
   688
 72
     1
 73
     0
 74
     5
  7

 75
    16
147
1.0
148
0.0
149
0.0
100
AcDbLayout
  1
Layout2
 70
     1
 71
     2
 10
0.0
 20
0.0
 11
0.0
 21
0.0
 12
0.0
 22
0.0
 32
0.0
 14
0.0
 24
0.0
 34
0.0
 15
0.0
 25
0.0
 35
0.0
146
0.0
 13
0.0
 23
0.0
 33
0.0
 16
1.0
 26
0.0
 36
0.0
 17
0.0
 27
1.0
 37
0.0
 76
     0
330
23
  0
LAYOUT
  5
22
102
{ACAD_REACTORS
330
1A
102
}
330
1A
100
AcDbPlotSettings
  1

  2
none_device
  4
Letter_(8.50_x_11.00_Inches)
  6

 40
6.35
 41
6.35
 42
6.35000508
 43
6.35000508
 44
215.9
 45
279.4
 46
0.0
 47
0.0
 48
0.0
 49
0.0
140
0.0
141
0.0
142
1.0
143
1.0
 70
  1712
 72
     1
 73
     0
 74
     0
  7

 75
     0
147
1.0
148
0.0
149
0.0
100
AcDbLayout
  1
Model
 70
     1
 71
     0
 10
0.0
 20
0.0
 11
279.4
 21
215.9
 12
0.0
 22
0.0
 32
0.0
 14
0.0
 24
0.0
 34
0.0
 15
279.4
 25
215.9
 35
0.0
146
0.0
 13
0.0
 23
0.0
 33
0.0
 16
1.0
 26
0.0
 36
0.0
 17
0.0
 27
1.0
 37
0.0
 76
     0
330
1F
331
29
  0
MLINESTYLE
  5
18
102
{ACAD_REACTORS
330
17
102
}
330
17
100
AcDbMlineStyle
  2
Standard
 70
     0
  3

 62
   256
 51
90.0
 52
90.0
 71
     2
 49
0.5
 62
   256
  6
BYLAYER
 49
-0.5
 62
   256
  6
BYLAYER
  0
ACDBPLACEHOLDER
  5
F
102
{ACAD_REACTORS
330
E
102
}
330
E
  0
SCALE
  5
48
102
{ACAD_REACTORS
330
47
102
}
330
47
100
AcDbScale
 70
     0
300
1:1
140
1.0
141
1.0
290
     1
  0
SCALE
  5
49
102
{ACAD_REACTORS
330
47
102
}
330
47
100
AcDbScale
 70
     0
300
1:2
140
1.0
141
2.0
290
     0
  0
SCALE
  5
4A
102
{ACAD_REACTORS
330
47
102
}
330
47
100
AcDbScale
 70
     0
300
1:4
140
1.0
141
4.0
290
     0
  0
SCALE
  5
4B
102
{ACAD_REACTORS
330
47
102
}
330
47
100
AcDbScale
 70
     0
300
1:5
140
1.0
141
5.0
290
     0
  0
SCALE
  5
4C
102
{ACAD_REACTORS
330
47
102
}
330
47
100
AcDbScale
 70
     0
300
1:8
140
1.0
141
8.0
290
     0
  0
SCALE
  5
4D
102
{ACAD_REACTORS
330
47
102
}
330
47
100
AcDbScale
 70
     0
300
1:10
140
1.0
141
10.0
290
     0
  0
SCALE
  5
4E
102
{ACAD_REACTORS
330
47
102
}
330
47
100
AcDbScale
 70
     0
300
1:16
140
1.0
141
16.0
290
     0
  0
SCALE
  5
4F
102
{ACAD_REACTORS
330
47
102
}
330
47
100
AcDbScale
 70
     0
300
1:20
140
1.0
141
20.0
290
     0
  0
SCALE
  5
50
102
{ACAD_REACTORS
330
47
102
}
330
47
100
AcDbScale
 70
     0
300
1:30
140
1.0
141
30.0
290
     0
  0
SCALE
  5
51
102
{ACAD_REACTORS
330
47
102
}
330
47
100
AcDbScale
 70
     0
300
1:40
140
1.0
141
40.0
290
     0
  0
SCALE
  5
52
102
{ACAD_REACTORS
330
47
102
}
330
47
100
AcDbScale
 70
     0
300
1:50
140
1.0
141
50.0
290
     0
  0
SCALE
  5
53
102
{ACAD_REACTORS
330
47
102
}
330
47
100
AcDbScale
 70
     0
300
1:100
140
1.0
141
100.0
290
     0
  0
SCALE
  5
54
102
{ACAD_REACTORS
330
47
102
}
330
47
100
AcDbScale
 70
     0
300
2:1
140
2.0
141
1.0
290
     0
  0
SCALE
  5
55
102
{ACAD_REACTORS
330
47
102
}
330
47
100
AcDbScale
 70
     0
300
4:1
140
4.0
141
1.0
290
     0
  0
SCALE
  5
56
102
{ACAD_REACTORS
330
47
102
}
330
47
100
AcDbScale
 70
     0
300
8:1
140
8.0
141
1.0
290
     0
  0
SCALE
  5
57
102
{ACAD_REACTORS
330
47
102
}
330
47
100
AcDbScale
 70
     0
300
10:1
140
10.0
141
1.0
290
     0
  0
SCALE
  5
58
102
{ACAD_REACTORS
330
47
102
}
330
47
100
AcDbScale
 70
     0
300
100:1
140
100.0
141
1.0
290
     0
  0
SCALE
  5
59
102
{ACAD_REACTORS
330
47
102
}
330
47
100
AcDbScale
 70
     0
300
1/128" = 1'-0"
140
0.0078125
141
12.0
290
     0
  0
SCALE
  5
5A
102
{ACAD_REACTORS
330
47
102
}
330
47
100
AcDbScale
 70
     0
300
1/64" = 1'-0"
140
0.015625
141
12.0
290
     0
  0
SCALE
  5
5B
102
{ACAD_REACTORS
330
47
102
}
330
47
100
AcDbScale
 70
     0
300
1/32" = 1'-0"
140
0.03125
141
12.0
290
     0
  0
SCALE
  5
5C
102
{ACAD_REACTORS
330
47
102
}
330
47
100
AcDbScale
 70
     0
300
1/16" = 1'-0"
140
0.0625
141
12.0
290
     0
  0
SCALE
  5
5D
102
{ACAD_REACTORS
330
47
102
}
330
47
100
AcDbScale
 70
     0
300
3/32" = 1'-0"
140
0.09375
141
12.0
290
     0
  0
SCALE
  5
5E
102
{ACAD_REACTORS
330
47
102
}
330
47
100
AcDbScale
 70
     0
300
1/8" = 1'-0"
140
0.125
141
12.0
290
     0
  0
SCALE
  5
5F
102
{ACAD_REACTORS
330
47
102
}
330
47
100
AcDbScale
 70
     0
300
3/16" = 1'-0"
140
0.1875
141
12.0
290
     0
  0
SCALE
  5
60
102
{ACAD_REACTORS
330
47
102
}
330
47
100
AcDbScale
 70
     0
300
1/4" = 1'-0"
140
0.25
141
12.0
290
     0
  0
SCALE
  5
61
102
{ACAD_REACTORS
330
47
102
}
330
47
100
AcDbScale
 70
     0
300
3/8" = 1'-0"
140
0.375
141
12.0
290
     0
  0
SCALE
  5
62
102
{ACAD_REACTORS
330
47
102
}
330
47
100
AcDbScale
 70
     0
300
1/2" = 1'-0"
140
0.5
141
12.0
290
     0
  0
SCALE
  5
63
102
{ACAD_REACTORS
330
47
102
}
330
47
100
AcDbScale
 70
     0
300
3/4" = 1'-0"
140
0.75
141
12.0
290
     0
  0
SCALE
  5
64
102
{ACAD_REACTORS
330
47
102
}
330
47
100
AcDbScale
 70
     0
300
1" = 1'-0"
140
1.0
141
12.0
290
     0
  0
SCALE
  5
65
102
{ACAD_REACTORS
330
47
102
}
330
47
100
AcDbScale
 70
     0
300
1-1/2" = 1'-0"
140
1.5
141
12.0
290
     0
  0
SCALE
  5
66
102
{ACAD_REACTORS
330
47
102
}
330
47
100
AcDbScale
 70
     0
300
3" = 1'-0"
140
3.0
141
12.0
290
     0
  0
SCALE
  5
67
102
{ACAD_REACTORS
330
47
102
}
330
47
100
AcDbScale
 70
     0
300
6" = 1'-0"
140
6.0
141
12.0
290
     0
  0
SCALE
  5
68
102
{ACAD_REACTORS
330
47
102
}
330
47
100
AcDbScale
 70
     0
300
1'-0" = 1'-0"
140
12.0
141
12.0
290
     0
  0
ENDSEC
  0
EOF
